Zacznij systematycznie uczyć się grać na gitarze razem ze stroną Moja nauka - będziesz miał/miała do niej dostęp po zalogowaniu się w serwisie

Słońcem opętani (tab) - Lady Pank

Opracował -a: jgarnek,
Redaktor: Tomek Pietrzkowski,
Pochodzi z: http://www.chords.pl
Data publikacji: 2007-05-18 00:02
 
Moja nauka


Ups, problem :-/
Zaloguj się Mój śpiewnik


Riff początkowy
E--------------------
B--------------------
G--------------------
D------0----0--------- x2
A----3----1---3-5-3-0
E--1-----------------

Linia melodyczna: zwrotka               przed refrenem (a ty co, możesz...)
--------------------------------------|-1-1-1-1-1-1------1-1-1-1-1-1------------
-3-3-3--1-1-1---1----3-3-3--1-1-1---1-|-------------3-3--------------5-3-5-3-5-3
--------------2---2---------------2---|-----------------------------------------
--------------------------------------|-----------------------------------------
--------------------------------------|-----------------------------------------
--------------------------------------|-----------------------------------------
                                         refren            tak od lat!
-1-1-1-1-1-1-----1-1-1-1-1-1-3-3-3-5-3-  |1-0-------1    --1-0-1
-------------3-3-----------------------  |----3-1-3--    -------
---------------------------------------  |----------- x3 -------!!
---------------------------------------  |-----------    -------
---------------------------------------  |-----------    -------
---------------------------------------  |-----------    -------

Dodaj komentarz ...i/lub link do filmiku video

Zaloguj się do serwisu
Wszelkie materiały i wypowiedzi zamieszczone na www.chords.pl są własnością ich autorów.