Zacznij systematycznie uczyć się grać na gitarze razem ze stroną Moja nauka - będziesz miał/miała do niej dostęp po zalogowaniu się w serwisie

Sztuka latania (solo) - Lady Pank

Dodał -a: Paweł B.,
Redaktor: Tomek Pietrzkowski,
Pochodzi z: http://www.chords.pl
Data publikacji: 2009-04-18 12:11, Poprawiono 2009-04-18 12:12
 
Moja nauka


Ups, problem :-/
Zaloguj się Mój śpiewnik
Grane kostką:

E|-----------------------------------
B|-----------------------------------
G|-8p6-------------------------------
D|-----9-8-6-----------8/11\8--------
A|-----------9-7-6---9--------9-9/11-
E|-----------------9-----------------

E|-----------------------------------
B|-----------------------------------
G|-8p6-------------------------------
D|-----9-8-6-----------8/11\8--------
A|-----------9-7-6---9--------9-9/11-
E|-----------------9-----------------

E|----------------------------------------------------------------------
B|--------------------------------------------9----------------14-------
G|------------------------------------------8---8-----------11----11----
D|--------------------------8\6--------9-11-------11-9-9/11----------11-
A|-11p9-9h11-9h11-9h11-9h11-----9-9/11----------------------------------
E|----------------------------------------------------------------------

E|-------------------------------------
B|-------------------------------------
G|-11-11--------------------------8----
D|-13-11h13p11----11---------9-11------
A|-------------14-13-11-9/11--------11-
E|-------------------------------------

Grane palcami:

E|----------------------------------------------------------
B|------9-------11------9-----------------------------------
G|----------------------------------------------------------
D|----9------11-------9-----8----9----11----11----9---8---8-
A|-11-----13-------11-----9---11---13----13----11---9---9---
E|----------------------------------------------------------

Grane kostką:

E|--------------------------------------------
B|-------------9----------------9------9------
G|-----------8---8---------8------8------8----
D|------9-11----------9-11---11-----11-----11-
A|-9/11------------11-------------------------
E|--------------------------------------------

Z przesterem i z kaczką:


E|---------------------------------------------------------------------
B|---------------------------------------------------------------7b9-7-
G|---------------------------------------------------4-6b8r6p4-6-------
D|-6p4-6-6p4-4/6-4h6-----------------------------4-6-------------------
A|-------------------4-6-4-2---------------2-4/6-----------------------
E|---------------------------4/6-4-2-4-2/4-----------------------------

E|-7-7-7-7-7-7-11-7-6-7-6-7-7-6-7-11-7-6-7-9-7-6---7p6-----------4---------
B|-----------------------------------------------7-----7\4-4-7b9---7p4-----
G|---------------------------------------------------------------------6b8-
D|-------------------------------------------------------------------------
A|-------------------------------------------------------------------------
E|-------------------------------------------------------------------------

opracowanie pochodzi od uprzejmego użytkownika youtube - Bjnpol
pod tym adresem http://www.youtube.com/user/Bjnpol
znajdziecie film z przykładem tej solówki...

Dodaj komentarz ...i/lub link do filmiku video

Zaloguj się do serwisu
Ostatnie komentarze
1.
pynio
2011-04-23 21:18
słuchaj nie wiem jeszcze bo nie grałem twojej wersji Jak zagram na pewno ocenie Pozdrawiam
2.
Jaskier94
2011-04-03 11:00
Kurcze, przecież tutaj nie ma 3/4 solówki, jakby cały środek wycięty...
Wszelkie materiały i wypowiedzi zamieszczone na www.chords.pl są własnością ich autorów.