Zacznij systematycznie uczyć się grać na gitarze razem ze stroną Moja nauka - będziesz miał/miała do niej dostęp po zalogowaniu się w serwisie

Wciąż bardziej obcy (tab) - Lady Pank

Dodał -a: nex,
Redaktor: Tomek Pietrzkowski,
Data publikacji: 2010-02-28 12:27
 
Moja nauka


Ups, problem :-/
Zaloguj się Mój śpiewnik
wstęp
-------5--------------5--------------5--------------5---------------5\---
-----3---3----------3---3----------3---3----------3---3-----------3------
---4-------4------4-------4------4-------4------4-------4-------4--------
-5--------------5--------------5--------------5---------------5----------
-------------------------------------------------------------------------
-------------------------------------------------------------------------


---------------------------------------------------------------------5----------------------------------
--------6-------5-------6------------3--(3)/5--6p5----8----------6-8---8-----------3---(3)/5--5h6p5---8-
------5---5-------5-------5--------3----(3)/5-------7----------5---------5-------3-----(3)/5--------7---
----7-------7-------7-------7----3------(3)/5----------------7-------------7---3-------(3)/5------------
--5--------------------------------------------------------5--------------------------------------------
--------------------------------------------------------------------------------------------------------


--8----------8--------------------------------8-----------8--------------------------
----10---------10---------10--8-----------------10----------10-------10---8----(8)---
-------7-----------------------------12--9---------7---------------------------------
-------------------7--8-----------10----------------------------7--8-----------------
-------------------------------------------------------------------------------------
-------------------------------------------------------------------------------------


zwrotka
---5---5------------5-------------------------------------
---6------6------------6--------3----(3)/5----6p5-----8---
---5---------5----------------3------(3)/5---------7------
---7------------------------3--------(3)/5----------------
---5-------------5----------------------------------------
----------------------------------------------------------

---5---5------------5-------------------------------8-----
---6------6------------6--------3----(3)/5---5---6--------
---5---------5----------------3------(3)/5----------------
---7------------------------3--------(3)/5----------------
---5-------------5----------------------------------------
----------------------------------------------------------

---5---5------------5-------------------------------------
---6------6------------6--------3----(3)/5---5h6p5----8---
---5---------5----------------3------(3)/5---------7------
---7------------------------3--------(3)/5----------------
---5-------------5----------------------------------------
----------------------------------------------------------



---5---5------------5-------------------------------------
---6------6------------6--------3----(3)/5----------------
---5---------5----------------3------(3)/5----------------
---7------------------------3--------(3)/5----------------
---5-------------5----------------------------------------
----------------------------------------------------------


refren
                                                x4 tylko za ostatnim razem na końcu jest
-------------------5----5-----------------------------------------------------------------
-----------6-------5------5----------3----(3)/5---------------------------------6--5----8-
------5--7----7----5--------5------3------(3)/5--------------------------------------7----
---7---------------7-------------3--------(3)/5-------------------------------------------
-------------------7----------------------------------------------------------------------
-------------------5----------------------------------------------------------------------


---8--------8------------------------------8---------8------------------------------------
-----10-------10--------10---8---------------10--------10----------10---8--(8)------------
---------7-------------------------12--9---------7----------------------------------------
------------------7---8--------10---------------------------7---8-------------------------
------------------------------------------------------------------------------------------
------------------------------------------------------------------------------------------

Dalej jest następna zwrotka, potem refren (wszystko jak wyżej)

Na zakończenie gra na gitarze zagrywkę, do której poźniej improwizuje.

--------------------------------------------------------------------------
-------5h6-----6---6---5---5h6----3---3---3/5-----------------------------
-------5-------5---5---5---5------3---3---3/5----tu gra rozne ozdobniki---
-------5h7-----7---7---5---5h7----3---3---3/5-----------------------------
--------------------------------------------------------------------------
--------------------------------------------------------------------------
                                                i tak przez całą solówkę

zakończenie
---------------5---------------------5----------------------5---------------------5--------------
------------6----6----------------6----6----------------6----6----------------6----6-------------
---------5----------5----------5----------5----------5----------5----------5----------5----------
------7----------------7----7----------------7----7----------------7----7----------------7-------
----5---------------------5---------------------5----------------------5---------------------5---
Dodał: nederr, 2013-02-08 14:38
Opracowania video z komentarzy

Dodaj komentarz ...i/lub link do filmiku video

Zaloguj się do serwisu
Ostatnie komentarze
1.
wojojojo
2015-12-01 19:16
A jesli nie to jaka?
2.
wojojojo
2015-12-01 19:11
Czy to tonacja d ???
3.
nederr
2013-02-08 14:38
Nowsza,ulepszona wesja covera zagrana przez Lukasza. Moim zdaniem najlepsza w necie.
Wszelkie materiały i wypowiedzi zamieszczone na www.chords.pl są własnością ich autorów.