Zacznij systematycznie uczyć się grać na gitarze razem ze stroną Moja nauka - będziesz miał/miała do niej dostęp po zalogowaniu się w serwisie

Wciąż bardziej obcy (tab) - Lady Pank

Opracował -a: rybazmarsa88,
Dodał -a: rybazmarsa88,
Redaktor: SEBEK1304,
Data publikacji: 2011-05-03 10:22
 
Moja nauka


Ups, problem :-/
Zaloguj się Mój śpiewnik
Tonacja oryginalna

Intro
----2-------2-------2-------2s-----------------------------------------------------------
---0--0----0--0----0--0----0---------3---2---3-------(4)---------------------------------
--1----1--1----1--1----1--1---------2-2---2---2-----4---4--4s6--6h7p6-6s0-----------------------
-2-------2-------2-------2---------4---4---4---4---5-----5-5s7-------9-----------------
----------------------------------2---------------5--------5s7-------------------------------
--------------------------------------------------------------------------------------

--------2------------------------------2----------------5----------------------------
----3--5-5-------------------------3--5-5-----------------------------------------
---2------2-----4-4s6--6---6------2------2----4-4s6--6-7--7-6-----------------------------
--4--------4---5--5s7-----9-9----4--------4--5--5s7------------------------------------
-2------------5---5s7-----------2-----------5---5s7--------------------------------------
---------------------------------------------------------------------------------------
                                4x      mostek
--------2------------------------5-------------------------------------------------
----3--5-5------------------------7--------7-5~~------------------------------------
---2------2-----4-4s6-6---6--------4-----------------------------------------------
--4--------4---5--5s7----9-8----------4-5-5-----------------------------------------
-2------------5---5s7---------------------------------------------------------------
---------------------------------------------------------------------------------
I Zwrotka
----------------------------------------------------------------------5----------------------------------
---3----3------------------2-3----3---------------3----3--------------------------3----3-------------------
----2----2---4-4s6-----------------2---4-4s6-------2----2---4-4s6--6h7--7p6------2---2---2---4-4s6---2-4-----
--4----4----5--5s7-------4-------4----5--5s7-----4----4----5--5s7---------------4-----------5--5s7--4---------
-2---------5---5s7------2------------5---5s7----2---------5---5s7--------------2-----------5---5s7-------------
--------------------------------------------------------------------------------------------------------------
Refren 4x               na koniec:
-2---2--2---------------------------------------------------------------------
-3---2---2---0--0----------------------------------------------------------------
-2-x-2----2--4--6-------------------------------------------------------------
-4-x-4-------5--7-------------------------------------------------------------
-2-x-4-------5--7-------------------5-4-------------------------------------------
-----2----------5-----------------2------------------------------------------
Mostek: ( w tle akordy ze zwrotki )
II gitara:
---------------------------------------------------------------2---------------
-----------------------------------------------------------3-5---5p3-------------
------------------------------------------------------2---2----------2--------
----4---4--4-4--2--2----2-0----2p0---------2------2h4---------------------------
--2--2---2----------(2)------2----2p0--2~~---0------------------------------
--------------------------------------------------------------------------

---2--s7--7-5-7~~-------------------------------------------------------------
--5--------------------------------------------------------------------------
------------------------------------------------------------------------
-------------------------------------------------------------------------
-------------------------------------------------------------------------------
--------------------------------------------------------------------------
Dalej mostek z intro 4x

Kolejna zwrotka i refren tak samo, ostatni refren 2x, po czym zagrywka:
-------------2---------------------------------------------------------
-2h3p2-------3---------------------------------------------------------------
------4-2----2-------------------------------------------------------------
---------4-2-4--------------------------------------------------------------
-------------2-------------------------------------------------------------
--------------------------------------------------------------------------
Outro:          i tak do końca, później II gitara:
----------------------------------------------------4------------------
--1---1---1---1--------------7----4------7----4--------7----4-------------------
---2-2-2-2-2-2-2---------------------------------------------------------------
-4--4---4---4---4-------------------------------------------------------------
-------------------------------------------------------------------------------
--------------------------------------------------------------------------
Dodał: Paweł B., 2012-11-10 16:56
Opracowania video z komentarzy

Dodaj komentarz ...i/lub link do filmiku video

Zaloguj się do serwisu
Wszelkie materiały i wypowiedzi zamieszczone na www.chords.pl są własnością ich autorów.