Zacznij systematycznie uczyć się grać na gitarze razem ze stroną Moja nauka - będziesz miał/miała do niej dostęp po zalogowaniu się w serwisie

Na granicy - Lady Pank

Dodał -a: michicybo,
Pochodzi z: http://gitara.org/
Data publikacji: 2005-06-04 23:30
 
Moja nauka


Ups, problem :-/
Zaloguj się Mój śpiewnik


Intro
====Git.1 (Akustyczna)
|----------------------|---------------------------------|
|--------8-7h8p7-------|---------------------------------|
|*-----9---------9-7-9-|----------9--7h9p7~~------------*|
|*---9-----------------|-------10------------10-9-7-----*|
|----------------------|----10----------------------10---|
|--0!------------------|--8!-----------------------------|
 ! - dzwięki grane przez dwie gitary

Zwrotka
======2 gitary
------|---7----7-----7----7---|-----------------------------|
------|---8p7--8-----8p7--8---|----5---5------7--7-7-8-8----|
------|*--9----9-----9----9---|----5---5------7--7-7-7-7---*|
----9-|*--9----9-----9----9---|----5-5-5-5----7--7-7-7-7---*|
--7---|---7----7-----7----7---|----3-3---3----5-------------|
------|-----------------------|-----------------------------|
           "Są granice..."

Refren
=====Git.1
|------0-----------0-----|--------2-----------2----|
|------0-----------1-----|--------3-----------4----|
|*-----0-----------0-----|-----2--2-----------4---*|
|*--2--2--------2--2-----|-----0--0--------4--4---*|
|---2--2--------3--3-----|-----------------2--2----|
|---0--------------------|-------------------------|
|                        |                         |
|Git.2                   |                         |
|------7-----------8-----|-------------------------|
|------8-----------8-----|--------7-----------4----|
|*--9--9-----------9-----|--------7-----------4---*|
|*--9--9-------10-10-----|-----7--7--------4--4---*|
|---7--7-------10-10-----|-----5--5--------2--2----|
|---------------8--8-----|-------------------------|
  "Dałaś mi..."



Pod koniec ostatniego refrenu jest grane:

 Git.1 (Akustyczna)
|------0-----------0-----|--------2-----------2----|
|------0-----------1-----|--------3-----------4----|
|*-----0-----------0-----|-----2--2-----------4---*|
|*--2--2--------2--2-----|-----0--0--------4--4---*|
|---2--2--------3--3-----|-----------------2--2----|
|---0--------------------|-------------------------|
|                        |                         |
|Git.2 (Elektryczna)     |                         |
|------------------------|-------------------------|
|-----/17~~~~------------|-17~~-15~~~~----\12vvv---|
|-----------------14~~~--|-------------------------|
|------------------------|-------------------------|
|------------------------|-------------------------|
|------------------------|-------------------------|


 Motyw Skrzypiec :))
==================== Aranzacja na gitare (grane z refrenem)
|--7-/15-7-/12--7--10---8--7--5--3--5---7--8--7--5--7--8--7--5-|
|--------------------------------------------------------------|
|*-------------------------------------------------------------|
|*-------------------------------------------------------------|
|--------------------------------------------------------------|
|--------------------------------------------------------------|

|--7-8-7-5-7-8-7-5-7-8-7-5~~~-|
|-----------------------------|
|----------------------------*|
|----------------------------*|
|-----------------------------|
|-----------------------------|

Ending
===== Git.2
 w/reverb
|------------------------|-------------------------|
|-----/17~~~~-----10~~---|-/17~~--15~~~~----\12vvv-| to grasz
|*-----------------------|------------------------*| 3 razy;
|*-----------------------|------------------------*| podkład to refren
|------------------------|-------------------------|
|------------------------|-------------------------|
 Git.1 ciągle gra to samo, czyli Refren

|------------------------|-------------------------|
|--10~--10h12~~~~~~------|-10h12~~~~~~-------------|
|------------------------|-------------------------|
|------------------------|-------------------------|
|------------------------|-------------------------|
|------------------------|-------------------------|
 Git.1 teraz gra jusz Intro akustyczne

|------------------------|-------------------------|
|--10h12~~~~~~----//20---|-20\\-----10-8-7---------|
|------------------------|-----------------9-9p7---|
|------------------------|-------------------------|
|------------------------|-------------------------|
|------------------------|-------------------------|

|------------------------|
|------------------------|
|--------7-9~~~~~~---(9)-|
|--9~-7h9----------------|
|------------------------|
|------------------------|


Zwrotka:

e
C  H
e
C  H


Przejście przed refrenem:

C   H


Refren:

e  C  D  H
Dodał: Janek, 2017-12-31 13:01
Opracowania video z komentarzy

Dodaj komentarz ...i/lub link do filmiku video

Zaloguj się do serwisu
Ostatnie komentarze
1.
tasior82
2007-09-15 16:44
Dzięki za poprawki :) tabulatura jest mojego autorstwa - super ze jakos sie dostala do netu :) pozdro
2.
Jakub Małecki
2006-05-03 15:07
Akordy w refrenie: Em Em D Hm
3.
Jakub Małecki
2006-05-03 15:04
Mysle, ze rownie dobrze akustyczne intro mozna zapisac tak: --------3-2h3p2----------------------------------- ---------------5-3-5--1-----1-3s5-3h5p3----------- ----------------------------------------5-4p2-0--- -----2------------------------------------------4- ---2---------------------3------------------------ -0-0---------------------------------------------- Akordy w zwrotce: Em C D2 Hm D2
Wszelkie materiały i wypowiedzi zamieszczone na www.chords.pl są własnością ich autorów.