Zacznij systematycznie uczyć się grać na gitarze razem ze stroną Moja nauka - będziesz miał/miała do niej dostęp po zalogowaniu się w serwisie

Stacja Warszawa - Lady Pank

Opracowali: coringer11, michicybo, praz,
Pochodzi z: http://www.chords.pl
Data publikacji: 2005-07-02 01:29
 
Moja nauka


Ups, problem :-/
Zaloguj się Mój śpiewnik
Wstęp:

E||------------------0--------|---0--------0--------0--------0--------|
B||------------1--3-----3-----|------1--------1--------3--------3-----|
G||----------2-------------2--|---------2--------2--------2--------2--|
D||---------------------------|---------------------------------------|
A||---------------------------|---------------------------------------|
E||---------------------------|---------------------------------------|


Zwrotka:

          a    a/F
w moich snach...
      G      C2
Pełna ulic...


Przejście:

--3----------3----------5--------------------------1----       2x
--3----------3--------5---5-----5--------3---------1----
--4----------4------5-------5-----5--------4-------2----
--5----------5------------------------5--------5---3----
--5------------------------------------------------3----
--3----------------5-------------------------------1----
   Wszystko byłoby inne       gdybyś tu była, ja wiem...


G                 a*
Wszystko byłoby...

  C        G     F
Gdybyś tu była...



Refren:

       a            G
Jesli miłość coś...
        C
Kiedyś też...
 F          G
Powiesz mi tak...


      a             G          C           F      G
-----------------------------------------------------
-------------------------------8-8-8-8-8---8---------
----7-9-9-9-9-9-9-9-7-7-7-9-10---------------10-9-7--
-10--------------------------------------------------
-----------------------------------------------------
-----------------------------------------------------


Zakończenie:

                             a2
|----------------------------0--|
|--8-6----------8-6----------0--|
|------9-7----------9-7------2--|
|----------10-9---------10-9-2--|
|----------------------------0--|
|-------------------------------|


Akordy:

 a   a/F   G   C2   a*   C   F
-0----0----3---3----5--------1--
-1----1----3---3----5----5---1--
-2----2----4---5----5----5---2--
-2----3----5---5----7----5---3--
-0---------5--------7----3---3--
-----------3--------5--------1--

Solo:

|-------------------------------------|-5-------------------------------|
|-----------------------------8-8b10~-|---8-5-----------5\--------------|
|-7b9-7b9-7b9-7~-5-7~-5-5b7r5---------|-------7b9r7p5-7----2~---5-7-----|
|-------------------------------------|-----------------------7---------|
|-------------------------------------|---------------------------------|
|-------------------------------------|---------------------------------|

|------------------------15-15-15-15--|---------------12----------------|
|---------------13-15b17--------------|-(17)r15p13-15----13b15r13----13-|
|-5b7r5----7/14-----------------------|---------------------------14----|
|-------7~----------------------------|---------------------------------|
|-------------------------------------|---------------------------------|
|-------------------------------------|---------------------------------|

|-------------------------------------|-----------------15-15-15-15-----|
|-15b17~-13-15--------13-15b17~-13-15-|--------13-15b17-----------------|
|--------------14~-14-----------------|-14~-14--------------------------|
|-------------------------------------|---------------------------------|
|-------------------------------------|---------------------------------|
|-------------------------------------|---------------------------------|

|---------------12--------------------|---------------------------------|
|-(17)r15p13-15----13b15r13----13-----|---------------------------10-12-|
|---------------------------14-12-12--|-12-12-12-----12b14~-12b14-------|
|---------------------------------15--|-14-12-10-12\--------------------|
|-------------------------------------|---------------------------------|
|-------------------------------------|---------------------------------|

|-------------------------------------|---------------------------------|
|-12-12b13r12-10----------10----------|-------------------------13------|
|----------------9-12b14~----12-9-----|-------------------12-14---------|
|-------------------------------------|-12b14r12p10-12/14---------------|
|-------------------------------------|---------------------------------|
|-------------------------------------|---------------------------------|

|-------------------------------------|---------------------------------|
|-15/17-17/20-20-20b22r20b22~---------|---------------------------------|
|-------------------------------------|---------------------------------|
|-------------------------------------|---------------------------------|
|-------------------------------------|---------------------------------|
|-------------------------------------|---------------------------------|
Dodał: Bartek Pawłowski, 2015-06-21 15:17
Opracowania video z komentarzy

Dodaj komentarz ...i/lub link do filmiku video

Zaloguj się do serwisu
Ostatnie komentarze
1.
mietuta@wp.pl
2007-08-08 18:31
a moze ten człowiek myśli że a-mol to h? ktoś go wkręcił jak się uczył i jest święcie przekonany że ma rację... Gościu w takim razie próbuj grać z Gis-dura ;]
2.
Bzzbzz
2007-05-27 23:00
a ciekawe w jakiej tonacji ten Pan grał Nothing Else Matters z Kirkiem Hammetem:)
3.
praz
2007-03-27 17:36
wiem, ze juz minelo troche czasu od tego komentarza, ale mam pytanie: macie te fotki z Kazikiem?:>
4.
Vbrake
2007-02-07 20:43
tak z lekkim opoznieniem ;] ale chcialbym dodac ze opracowanie jest swietne... nawet ja, totalne beztalencie :P nauczylem sie tego w jakies 10 min (nie licząc solowki :P)... a tamten "pan" to pewnie jakis malolat z klas 1-3 ktory sie dorwal do internetu w cafejce mimo pozwolenia mamusi i se jaja na necie robil... co mu nie wyszlo... pozdro ;]
5.
edytos
2006-03-23 11:50
ja ta piosenke gram tonacja a mol io wg mnie ta est prawidlowa tylko nieumiem solowki do niej prosilabym bo gram na gitaze troche krotko i trudno mi jest samej sie kapnac jaka jest solowka dlatego prosze o pomoc
6.
michicybo
2005-08-18 13:57
aha i kondi wez juz wysli tą "Przekorną duszę" Jana Bo, bo z czego pamietam, to motyw po slówce sie powtarza i jest to samo wiec nie musisz sie dalej męczyc :> i wyslij mi te fotki!!!! michalcybo@wp.pl lub gg: 3028618
7.
michicybo
2005-08-06 22:22
to jak tam kondi wyslesz mi te fotki z jankiem...?
8.
denu
2005-08-01 23:34
wiesz, moglo byc tak ze sobie popili i grali w innej tonacji niż na płycie, a kondi uznał i się uparł, że to jedyna prawidłowa wersja. smutne, że tego nie chce zrozumieć :]
9.
michicybo
2005-08-01 16:24
jak masz te fotki z jankiem to wyslij na mojego mejla i rozpisz mi stacje warszawa wg. twojego opracowania.... nie zakoncze tego tematu bo wiem ze jest to twoje opracowanie nieprawidłowe!!! chyba ze janek byl pijany i moze cos mu sie popierdaczyło i od h mollu zaczął grac "ale wkoło jest wesoło" ;P bo na cd "teraz"jestb w tonacji a moll i kazdy mi to potwierdzi... jesli na płycie teraz jest w tonacji h molll to ja odchodze z chordsów bo totalnie nie mam słuchu... czekam na twoje opracowanie, prosze zarząd chordsów o dodanie na tsronke i ocenienie któro opracowanie jest lepsze!!! i czekam na fotki.... pozdro
10.
biskup
2005-07-31 12:40
tez sie pisze na te foty z kazikiem :P
Wszelkie materiały i wypowiedzi zamieszczone na www.chords.pl są własnością ich autorów.