Zacznij systematycznie uczyć się grać na gitarze razem ze stroną Moja nauka - będziesz miał/miała do niej dostęp po zalogowaniu się w serwisie

W Twoich oczach - Lady Pank

Opracował -a: michicybo,
Pochodzi z: http://www.chords.pl
Data publikacji: 2004-12-10 22:53
 
Moja nauka


Ups, problem :-/
Zaloguj się Mój śpiewnik
Wstęp (przejście):

 D      A     D          G          A      D
-----------------------------------------------
--------------------8-10-12-10-8--------10-----
-----11-9-----11-11--------------11-9-9----11--
-9-9-------7-----------------------------------
-----------------------------------------------
-----------------------------------------------

 A      D                  Wstęp 2 razy
---------------------
-----10--------------
-9-9----11--9--------
--------------12-11--
---------------------
---------------------



Zwrotka:

G   D
G   D
G   D
G   A


Przejście:

D  A  D  G  A  D  A  D   2x


Zwrotka:

G   D
G   D
G   D
G   A


Refren:

D   A
h   Fis
G   A
D   A
h   Fis
G   A
Dodał: michicybo, 2016-12-26 22:16
Opracowania video z komentarzy

Dodaj komentarz ...i/lub link do filmiku video

Zaloguj się do serwisu
Wszelkie materiały i wypowiedzi zamieszczone na www.chords.pl są własnością ich autorów.