Zacznij systematycznie uczyć się grać na gitarze razem ze stroną Moja nauka - będziesz miał/miała do niej dostęp po zalogowaniu się w serwisie

Kryzysowa narzeczona - Lady Pank

Opracował -a: michicybo,
Pochodzi z: http://www.chords.pl
Data publikacji: 2004-09-25 23:45, Poprawiono 2012-05-09 10:59
 
Moja nauka


Ups, problem :-/
Zaloguj się Mój śpiewnik


Wstęp:
E||--------------------------------------------------------------------------|
H||--------------------------------------------------------------------------|
G||-----2--0------------2--5--0----------2--0--2---------2--0----------------|
D||-----------2------------------2----------------2-----------2--------------|
A||---0---------3--0--0-------------3--3------------3--3--------3--3--0------|
E||--------------------------------------------------------------------------|

E||---------------------------------------------------------5--5------7-------||
H||---------------------------------------------------------6--6------8-------||
G||----2--0-------------2--5--0---------2--0--2--0----------5--5--x---7-------||
D||---------2-------------------2-------------------2-------7--7--x---9-------||
A||--0---------3--0--0-------------3--3----------------3----5--5--x---7-------||
E||---------------------------------------------------------------------------||

Zwrotka:
E||------------------------|-----------------------|-----------------------|
H||------------------------|-----------------------|-----------------------|
G||-------------2--2-------|-------------2---------|-----------------------|
D||-------2--2--------2----|-------2--2-----2------|-------------3--3------|
A||--0---------------------|----0------------------|-------3--3------------|
E||------------------------|-----------------------|--1--------------------|

E||------------------------||
H||------------------------||
G||-------------0--0-------||   Całość x4
D||-------0--0--------0----||
A||------------------------||
E||----3-------------------||

Refen:
E||-----------------------|----------------------|-----------------------|
H||----------0------------|----------0-----------|----------0------------|
G||---------------0-------|-----------------0----|---------------0-------|
D||-------2------------2--|-------2--------------|-------2------------2--|
A||--0--------------------|----0-----------------|--3--------------------|
E||-----------------------|----------------------|-----------------------|



E||----------------------|-----------------------|----------------------|
H||----------0-----------|----------0------------|----------0-----------|
G||-----------------0----|---------------0-------|-----------------0----|
D||-------2--------------|-------2------------2--|-------2--------------|
A||----3-----------------|--0--------------------|----0-----------------|
E||----------------------|-----------------------|----------------------|



E||-----------------------|----------0-------------|--------5----------------|
H||----------0------------|---------------1--------|-----1----------6--------|
G||---------------0-------|------------------0--0--|-----------5-------5-----|
D||-------2------------2--|-------2----------------|--0----------------------|
A||--3--------------------|----3-------------------|----------------------5--|
E||-----------------------|------------------------|-------------------------|



E||--------5--5-------------|-----5----------5--------|--------3--3-----3--3--3|
H||----------------6--------|-----6----6--------6-----|--------5--5-----5--5--5|
G||-----5-----5-------5-----|-----5----5-----5--5--5--|-----5--5-----5--5--5--5|
D||-------------------------|--3----------3-----------|-----------5-----------5|
A||--5-------------------5--|-------------------------|--3-----------------3---|
E||-------------------------|-------------------------|------------------------|



E||--------5----------------|--------5--5-------------|-----5----------5-------|
H||----------------6--------|----------------6--------|-----6----6--------6----|
G||-----5-----5-------5-----|-----5-----5-------5-----|-----5----5-----5--5--5-|
D||-------------------------|-------------------------|--3----------3----------|
A||--5-------------------5--|--5-------------------5--|------------------------|
E||-------------------------|-------------------------|------------------------|



E||--------3--3-----3--3--3--|--5--------7--------||
H||--------5--5-----5--5--5--|--6--------8--------||
G||-----5--5-----5--5--5--5--|--5--------7--------||
D||-----------5-----------5--|--------------------||
A||--3-----------------3-----|--5--------7--------||
E||--------------------------|--------------------||



Zwrotka:

a
F  G


Przejście:

e/a
e/C


Refren:

d7
B   C
d7
B   C
d7  e7

Solo dodane przez użytkownika Jasqlsky:

E||-------------------------|-------------------------|------------------------|
H||-------------------------|--15-17-17-17-17-17-17---|-15---15---13---13------|
G||-0----2----0-------------|-------------------------|---------------(10)-----|
D||---------------3----0----|-------------------------|------------------------|
A||-------------------------|-------------------------|------------------------|
E||-------------------------|-------------------------|------------------------|



E||-------------------------|-------------------------|------10------7---------|
H||--10---12----------------|10--8--------------------|8-----------------------|
G||-------------9-----------|--------7--------------7-|------------------------|
D||-------------------------|-------------------------|------------------------|
A||-------------------------|-------------------------|------------------------|
E||-------------------------|-------------------------|------------------------|



E||-------------------------|-------------------------|------------------------|
H||--10---------------------|-------------------------|------------------------|
G||-----------7-----7---9---|-----------------9-------|--------7~~~~/----------|
D||-------------------------|-----7-------------------|------------------------|
A||-------------------------|-------------------------|------------------------|
E||-------------------------|-------------------------|------------------------|



E||-------------------------|-------------------------|--------------------15--|
H||--15-17-17-17-17-17-17---|-15---15---13---13-------|--15-17-17-17-15-17-----|
G||-------------------------|---------------(10)------|------------------------|
D||-------------------------|-------------------------|------------------------|
A||-------------------------|-------------------------|------------------------|
E||-------------------------|-------------------------|------------------------|



E||-17----------------------|-------------------------|------------------------|
H||-------17----13----15----|----13~~~~~~~~~~~~~~\----|------15------12--------|
G||-------------------------|-12-------14~~~~~~~~\----|14------------------9---|
D||-------------------------|-------14~~~~~~~~~~~\----|---14------------10-----|
A||-------------------------|-------------------------|------------------------|
E||-------------------------|-------------------------|------------------------|



E||-------------------------|-------------------------|------------------------|
H||-------------------------|-------------------------|------------------------|
G||-------------------------|-------------------------|------------------------|
D||12-10-12-(12)----10------|-10-10-----10-----12-----|------------------------|
A||---------------------12--|---------------10--------|------------------------|
E||-------------------------|-------------------------|------------------------|



E||-------------------------|-------------------------|------------------------|
H||-------------------------|-------------------------|------------------------|
G||----14----16--17--17--14-|---14--------------------|--16-14-16-17-----------|
D||-------14----------------|14----12~~~~\------------|------------------------|
A||-------------------------|-------------------------|------------------------|
E||-------------------------|-------------------------|------------------------|



E||-------------------------|-------------------------|------20-19-------------|
H||-------------------------|-------------------------|------------17~~~~~~~~~~|
G||-------------------------|-------16-14-16-17-17-14-|12~~/-------------------|
D||-------------------------|-------------------------|------------------------|
A||-------------------------|-------------------------|------------------------|
E||-------------------------|-------------------------|------------------------|
Dodał: michicybo, 2012-10-25 12:29
Opracowania video z komentarzy

Dodaj komentarz ...i/lub link do filmiku video

Zaloguj się do serwisu
Ostatnie komentarze
1.
michicybo
2012-10-25 12:29
http://www.youtube.com/watch?v=CLz01ySTL3Q
Wszelkie materiały i wypowiedzi zamieszczone na www.chords.pl są własnością ich autorów.