Zacznij systematycznie uczyć się grać na gitarze razem ze stroną Moja nauka - będziesz miał/miała do niej dostęp po zalogowaniu się w serwisie

Dla Alicji (tab) - Lady Pank

Opracował -a: Jaskier94,
Dodał -a: Jaskier94,
Redaktor: SEBEK1304,
Pochodzi z: http://www.chords.pl
Data publikacji: 2011-09-04 09:03
 
Moja nauka


Ups, problem :-/
Zaloguj się Mój śpiewnik
 IGITARA
   a             a   G   e      h      e
--------------|------3--0-0--2-2-2-2--0-0-|
--1-1-3-1-0-1-|-1-1--3--0-0--3-3-3-3--0-0-|
--2-2-2-2-2-2-|-2-2--0--0-0--4-4-4-4--0-0-|
--2-2-2-2-2-2-|-2-2--0--2-2--4-4-4-4--2-2-|
--------------|------2--2-2--2-2-2-2--2-2-|
--------------|------3--0-0--2-2-2-2--0-0-|

zagrywka przed refrenem

----------0-------------------------------------------|
----------0-------------------------------------------|
----------0-------------------------------------------|
----------2-------------------------------------------|
-2--------2-------------------------------------------|
--3-3-5-0-0-------------------------------------------|


IIGitara

wstęp(zagrywka1)

-----------------------------------------------------|
-----------------------------------------------------|
---------------7-7-5-5sl7-7sl9-----------------------|
-sl7.......sl7---------------------------------------|
-----------------------------------------------------|
-----------------------------------------------------|


-----------------------------------------------------|
-----------------------sl15-15sl17-17-17-------------|
--sl14-14-16-14-12-9-9------------------16-16--------|
-----------------------------------------------------|
-----------------------------------------------------|
-----------------------------------------------------|

(zagrywka2)

-----------------------------------------------------|
-----------------------------------------------------|
---------7-5-7-7sl9----------------------------------|
-7-sl7-7---------------------------------------------|
-----------------------------------------------------|
-----------------------------------------------------|

(zagrywka końcowa)

-------------------------------------------------------------------------|
------------------------------8-8b10-10-8-10-----------------------------|
---------7sl5-7-7sl9------7-9-----------------7sl5-7-7sl9--[x5]----------|
--7-sl7--------------10-7----------------------------------9sl7-5-7-7-5--|
-----------------------------------------------------------------------7-|
-------------------------------------------------------------------------|


Opracowanie:

Łukasz Rosa

Dodaj komentarz ...i/lub link do filmiku video

Zaloguj się do serwisu
Wszelkie materiały i wypowiedzi zamieszczone na www.chords.pl są własnością ich autorów.