Zacznij systematycznie uczyć się grać na gitarze razem ze stroną Moja nauka - będziesz miał/miała do niej dostęp po zalogowaniu się w serwisie

Strach się bać (intro) - Lady Pank

Opracował -a: jtpg208,
Redaktor: Tomek Pietrzkowski,
Pochodzi z: http://www.chords.pl
Data publikacji: 2007-08-07 00:34
 
Moja nauka


Ups, problem :-/
Zaloguj się Mój śpiewnik
E||-------|-------------------------|--8--9--8--6----|-------------------------|
B||-------|--9----9----9--9------9--|----------------|--9----9----9--9------9--|
G||-------|------------------10-----|----------------|------------------10-----|
D||-------|-------------------------|----------------|-------------------------|
A||-------|-------------------------|----------------|-------------------------|
E||-------|-------------------------|----------------|-------------------------|



--8--9--8--6----|------------------|---------------|--------------|
----------------|--9----9----9--9--|--9------------|--------------|
----------------|------------------|--------10--10-|--10--8--8----|
----------------|------------------|---------------|--------------|
----------------|------------------|---------------|--------------|
----------------|------------------|---------------|--------------|



-----------------------|--8--9--8--6----||
--9--------------------|----------------||
-------10--10--10------|----------------||
-------------------13--|----------------||
-----------------------|----------------||
-----------------------|----------------||

 by BigJack

Dodaj komentarz ...i/lub link do filmiku video

Zaloguj się do serwisu
Wszelkie materiały i wypowiedzi zamieszczone na www.chords.pl są własnością ich autorów.