Zacznij systematycznie uczyć się grać na gitarze razem ze stroną Moja nauka - będziesz miał/miała do niej dostęp po zalogowaniu się w serwisie

Taka wyspa - Lady Pank

Opracowali: michicybo, Seba, tomkez,
Pochodzi z: http://www.chords.pl
Data publikacji: 2004-09-22 23:16, Poprawiono 2012-08-16 14:12
 
Moja nauka


Ups, problem :-/
Zaloguj się Mój śpiewnik
Wstęp:

E1|------------------------------------------10------------------------
H|-----------12---------------------------12----10---------------------
G|--9---9-11-----------------12--9---9-11----------12--------------12--
D|----9----------10----10-12-------9-------------------10----10-12-----
A|------------------10------------------------------------10-----------
E6|--------------------------------------------------------------------

Zwrotka:

e2  a
C2  G  e2  a  C2  G

E1|--------------------------------------------------
H|---------------------------------------------------
G|---------------------------------------------------
D|--4-4--7-7--9--------------2-4--5-5-5--4-4--7-7-7--
A|--2-2--5-5--7--5-5--7-7-7--0-2--3-3-3--2-2--5-5-5--
E6|--------------3-3--5-5-5--------------------------

Refren:

e  C
G  D

Tab wstępu dodany przez użytkownika tomkez
Tab do zwrotki dodany przez użytkownika Seba

Dodaj komentarz ...i/lub link do filmiku video

Zaloguj się do serwisu
Wszelkie materiały i wypowiedzi zamieszczone na www.chords.pl są własnością ich autorów.