Zacznij systematycznie uczyć się grać na gitarze razem ze stroną Moja nauka - będziesz miał/miała do niej dostęp po zalogowaniu się w serwisie

Rozbitkowie - Lady Pank

Opracował -a: michicybo,
Pochodzi z: http://gitara.org/
Data publikacji: 2004-10-11 23:23
 
Moja nauka


Ups, problem :-/
Zaloguj się Mój śpiewnik
Wstęp  i  zwrotka

             E             C                A                h   G    E
---------------------------------------------------------------------------
---------------------------------------------------------------------------
--9------x--x--x---5------x--x--x------------------------------------------
--9--9---x--x--x---5--5---x--x--x---7--------------------------------------
--7--7---x--x--x---3--3---x--x--x---7--7---x--x--x---9---5---2-------------
------------------------------------5--5---x--x--x---7---3---0-------------


Refren   (  gitara 1 gra samymi akordami )

             Gitara 2
C      G  D                  C   G            C   G   D    C G
----------3--2--0-----------------------------3--2--0----------------------
--5---3---3--3--3---5---3-------3-----5---3---3--3--3----5---3-------------
--5---4---2---------5---4---4---------5---4---2----------5---4---4---------
----------0-----------------5-----------------0------------------5---------
--3---5-------------3---5---5---------3---5--------------3---5---5---------
----------------------------3------------------------------------3---------
Dodał: Janek, 2017-12-31 13:11
Opracowania video z komentarzy

Dodaj komentarz ...i/lub link do filmiku video

Zaloguj się do serwisu
Ostatnie komentarze
1.
PrzekornaDusza
2016-04-25 11:26
Naturalnie się wszystko rozjechało: ---------0-------------------2-0------------------------ -----5-----------------0-------------------------------- ---4---4-----5-4-2---2-----4---------------------------- -----------5-------2------------------------------------ -------------------------------------------------------- -x------------------------------------------------------
2.
PrzekornaDusza
2016-04-25 11:11
Po za tym w intro po riffie podstawowym jest (x2), oraz w 3 zwrotce (x4) grany jest taki motyw: ---------0------------------2-0-- -----5-----------------0--------- ---4---4-----5-4-2---2----4------ -----------5-------2------------- --------------------------------- -x-------------------------------
3.
PrzekornaDusza
2016-04-25 10:45
Refren na 100 % idzie inaczej. Jest: C D e G H C D e G I po G ta wstaweczka D|-----0-2- A|-0h2----- I to wszystko x2.
4.
tomkez
2015-08-10 19:41
--------------------------------- --5-5-''--5-5-''----------------- --4-4-''--5-5-''--2-2---4^------- --5-5-''--5-5-''--2-2---4^------- --------------------------------- 0--------------------------3^0--
5.
tomkez
2015-07-03 20:26
pomyłka czwarty chwyt o próg niżej przesunąć dwa palce ;-)
6.
tomkez
2015-07-03 20:13
----------------------------- --5-5---1-1------------------- --4-4---0-0---2-2------------- --5-5---2-2---2-2---5^-------- --------3-3---0-0---3^-------- 0----------------------3^^0---
7.
pirat21wieka
2010-02-19 12:30
Ja mam taką wizję refrenu C D4 D D2 C G h tancza na glowie rozbitkowie W drugim i czwartym wersie na h-mollu taka pierdółka H|-----2- E|-0h3--- Uwagi mile widziane
8.
dominikmwa
2009-01-13 18:37
Janek to gra tak, jak napisał tomekz. Widziałem na video z akustycznego koncertu jak nagrywali płytę "Akustycznie" :)
9.
michicybo
2007-08-08 14:06
Niestety nie mam tego nagrania... a czy banalne? normalnie, gra sie własnie tak aby sobie ulatwic a nie utrudnic ;P
10.
tomkez
2007-08-07 22:30
Wątpię to by było zbyt banalne dla niego, poza tym może mam gumowe ucho ale dla mnie to nie brzmi... ale nie o tym chciałem pisać, zobacz sobie akustycznie z Łodzi coś tam kombinuje przy tych progach grając intro i podkład, co ja podałem :-), tak to widzę przynajmniej...
Wszelkie materiały i wypowiedzi zamieszczone na www.chords.pl są własnością ich autorów.