Zacznij systematycznie uczyć się grać na gitarze razem ze stroną Moja nauka - będziesz miał/miała do niej dostęp po zalogowaniu się w serwisie

Zamki na piasku - Lady Pank

Opracował -a: michicybo,
Pochodzi z: http://www.gitara.org/
Data publikacji: 2004-09-25 23:47
 
Moja nauka


Ups, problem :-/
Zaloguj się Mój śpiewnik


Ten motyw leci prawie przez całą piosenkę:
E||--------------------------|-----------------------|-----------------------|
H||--------------------------|-----------------------|-----------------------|
G||--------------------------|-----------------------|-----------------------|
D||--------------------------|-----------------------|-----------------------|
A||--------9--9--------5--5--|--------7--7-----------|--------4--4-----------|
E||--7--7--------3--3--------|--5--5-----------------|--2--2-----------------|



E||-----------------------||
H||-----------------------||
G||-----------------------||
D||-----------------------||
A||--------5--5-----------||
E||--3--3-----------------||

Zagrywka między refrenem a zwrotką:
E||-------------------------|----------0---|-----------------|------------||
H||-------------------------|----------0---|-----------------|------------||
G||-------------------7-----|-6-----6------|-----------------|------------||
D||-------9--------7-----7--|----7---------|---4--4----4-----|---5--5----5||
A||----9-----9--5-----------|--------------|---4--4----4-----|---5--5----5||
E||-7-----------------------|--------------|---2--2----2-----|---3--3----3||

Przejście:
E||--------------------|--------0----|------------------------|---0----||
H||--------------------|-----0-------|------------------------|---0----||
G||--------------------|--2----------|------------------7-----|---6----||
D||--------------------|-------------|-------9-------7----7---|---7----|| x4
A||-------0--2---------|-------------|----9----9--5-----------|---0----||
E||-2--3---------2--3--|-------------|-7----------------------|--------||



Zwrotka, refren i przejście:

h  G  A  A
fis  fis  G  G
Dodał: wojtek_n, 2017-03-09 22:45
Opracowania video z komentarzy

Dodaj komentarz ...i/lub link do filmiku video

Zaloguj się do serwisu
Ostatnie komentarze
1.
ksasiu
2014-07-24 19:39
Cholera, nie tak, tylko tak :P E||--------------------------| H||--------------------------| G||--------------------------| D||--------4--4--------------| A||--------2--2--------5--5--| E||--------------3--3--------|
Wszelkie materiały i wypowiedzi zamieszczone na www.chords.pl są własnością ich autorów.