Zacznij systematycznie uczyć się grać na gitarze razem ze stroną Moja nauka - będziesz miał/miała do niej dostęp po zalogowaniu się w serwisie

Swojski Brodłej (Sopot 85) - Lady Pank

Opracował -a: PrzekornaDusza,
Dodał -a: PrzekornaDusza,
Redaktor: SEBEK1304,
Data publikacji: 2011-03-23 14:13
 
Moja nauka


Ups, problem :-/
Zaloguj się Mój śpiewnik


Opracowanie gitary solowej i częściowo basu do wykonania z Sopotu 85.

Wstęp:
Gitara prowadząca:                                   x2
-------------------------------------------------|--
----------9--------9---------------9-------------|--
------7---------7----7----------7----------------|--
---10-------------------10--10-------------------|--
-------------------------------------------------|--
-------------------------------------------------|--

                                                      x2
-------7--------------------------------------------|--
---9------7-7---5-----9-------------------10--------|--
-------------------------8--8---6------7------7-----|--
-------------------------------------------------9--|--
----------------------------------------------------|--
----------------------------------------------------|--

Bas:                                   x6(pierwsze 2x sam a potem równo z gitarą)
-----------------------------------------
-----------------------------------------
-3--6-5-3------------0--3-2-0--0--3-2-0--
-----------3--6-5-3----------------------

Zwrotka:
Gitara prowadząca:

    x4       x4      x4   x4                            całość x4
---3--------3--------5----5--------------------------|--
---3--------3--------5----5--------------------------|--
---5--------4--------5----5--------------------------|--
---5--------5--------7----7--------------------------|--
---3--------5--------7----7--------------------------|--
---3--------3--------5----5--------------------------|--

Bas: to samo co we wstępie, równo z gitarą.

Refren:
     x2       x2   (całość x3)                               x2
---1--------5---------------|----3--1--3--5--3--1---------|--
---1--------5---------------|----3--1--3--5--3--1---------|--
---2--------5---------------|----3--1--3--5--3--1---------|--
---3--------7---------------|----5--3--5--7--5--3---------|--
---3--------7---------------|----5--3--5--7--5--3---------|--
---1--------5---------------|----3--1--5--5--3--1---------|--

Dalej: Wstęp(gitara), zwrotka, refren, solo(improwizacja do podkładu takiego jak
zwrotka z tappingiem w środku.)

Końcówka solówki:(kostkując cały czas slide z 8,7 na 10,9 i z powrotem x16)

---------------------------------------------|--
----8---/---10---/---8-----------------------|--
----7---/---9----/---7-----------------------|--
---------------------------------------------|--
---------------------------------------------|--
---------------------------------------------|--
Przejście: (W czasie chórku "Brodłej, Brodłej, Brodłej...")
                                            szybko x 16
-------------------------------------------------|
------------8------------------------------------|
-------7--------7--------------------------------|
--10---------------10----------------------------|
-------------------------------------------------|
-------------------------------------------------|

Zakończenie:( takie samo jak wstęp: na początku 2x sam bas, potem 2x
z gitarą pierwszy motyw ze wstępu i na koniec sama gitara solowa gra
ten sam motyw x3)

Dodaj komentarz ...i/lub link do filmiku video

Zaloguj się do serwisu
Wszelkie materiały i wypowiedzi zamieszczone na www.chords.pl są własnością ich autorów.