Zacznij systematycznie uczyć się grać na gitarze razem ze stroną Moja nauka - będziesz miał/miała do niej dostęp po zalogowaniu się w serwisie

Życie jak maraton (tab) - Lady Pank

Opracował -a: Jaskier94,
Dodał -a: Jaskier94,
Redaktor: SEBEK1304,
Pochodzi z: http://www.chords.pl
Data publikacji: 2011-09-04 09:03
 
Moja nauka


Ups, problem :-/
Zaloguj się Mój śpiewnik
INTRO


    fis           H2            cis7
----------------------------------------------|
----------------------------------------------|
----------------------------------------------|
-----------------------------------2----------|
--------4-2--4-2-4-2-4-4-2-4-2-4-4---4-2------|
--2-0-2----------------------------------4-2--|


REFREN
    A          E           fis          D
-5-5-5-5-5--0-0-0-0-0---2-2-2-2-2--5-5-5-5-5-5-|sl->--7-7-|
-5-5-5-5-5--0-0-0-0-0---2-2-2-2-2--7-7-7-7-7-7-|sl->--9-9-|
-6-6-6-6-6--1-1-1-1-1---2-2-2-2-2--7-7-7-7-7-7-|sl->--9-9-|
-7-7-7-7-7--2-2-2-2-2---4-4-4-4-4--7-7-7-7-7-7-|sl->--9-9-|
-7-7-7-7-7--2-2-2-2-2---4-4-4-4-4--5-5-5-5-5-5-|sl->--7-7-|
-5-5-5-5-5--------------2-2-2-2-2--5-5-5-5-5-5-|sl->--7-7-|


PARTIA SOLOWA
                                 [           2x            ]
-------------------------------9--7-9-9-7-7-9-9-7-9sl12sl14---|
---7-7-7-7-7------7-7-7-7-7sl10-------------------------------|
--9-9-9-9-9-9----9-9-9-9-9------------------------------------|
-------------11-----------------------------------------------|
--------------------------------------------------------------|
--------------------------------------------------------------|



Opracowanie:

Łukasz Rosa

Dodaj komentarz ...i/lub link do filmiku video

Zaloguj się do serwisu
Wszelkie materiały i wypowiedzi zamieszczone na www.chords.pl są własnością ich autorów.