Zacznij systematycznie uczyć się grać na gitarze razem ze stroną Moja nauka - będziesz miał/miała do niej dostęp po zalogowaniu się w serwisie

Na co komu dziś - Lady Pank

Dodali: michicybo, pesobo,
Pochodzi z: http://gitara.org/
Data publikacji: 2005-01-08 10:32
 
Moja nauka


Ups, problem :-/
Zaloguj się Mój śpiewnik


wstęp

-0--0--0--0--3---3--3----3---0----------1----------------------------------
-1--1--0--1--3---3--3--x-3---1---3--0---1---1------------------------------
-2--2--2--2--0---0--0--x-0---0---0--0---2---0------------------------------
-2--2--2--2--0---0-----x-----2---2--2---3---3------------------------------
-0--0--0--0--2---------------3---3--3---3---3------------------------------
-------------3-------------------------------------------------------------

-0--0--0--0--3---3--3----3---0----------1----------------------------------
-1--1--0--1--3---3--3--x-3---1---3--0---1----------------------------------
-2--2--2--2--0---0--0--x-0---0---0--0---2----------------------------------
-2--2--2--2--0---0-----x-----2---2--2---3----------------------------------
-0--0--0--0--2---------------3---3--3---3----------------------------------
-------------3-------------------------------------------------------------


Zwrotka

---------------------------------------------------------------------------
---------------------------------------------------------------------------
---------------------------------------------------------------------------
----------2--2-2----------------------------------2--2-2-2-----------------
-3--3--3--0--0-0-2--3--3--3---5--5-5-2---3--3--3--0--0-0-0-2--3--3--3--5--5
-1--1--1---------0--1--1--1---3--3-3-0---1--1--1-----------0--1--1--1--3--3
                                                                                                 itd

Refren

-0--0--0--0--3---3--3----3---0----------1----------------------------------
-1--1--0--1--3---3--3--x-3---1---3--0---1---1------------------------------
-2--2--2--2--0---0--0--x-0---0---0--0---2---0------------------------------
-2--2--2--2--0---0-----x-----2---2--2---3---3------------------------------
-0--0--0--0--2---------------3---3--3---3---3------------------------------
-------------3-------------------------------------------------------------

-0--0--0--0--3---3--3----3---0----------1----------------------------------
-1--1--0--1--3---3--3--x-3---1---3--0---1----------------------------------
-2--2--2--2--0---0--0--x-0---0---0--0---2----------------------------------
-2--2--2--2--0---0-----x-----2---2--2---3----------------------------------
-0--0--0--0--2---------------3---3--3---3----------------------------------
-------------3-------------------------------------------------------------

Przejście

------------------------5--5----1---3--------------------------------------
-1--1--1--1--1---3--3---5--5----1---3--------------------------------------
-2--2--2--2--2---4--4---5--5----2---4--------------------------------------
-3--3--3--3--3---5--5---7--7----3---5--------------------------------------
-3--3--3--3--3---5--5---7--7----3---5--------------------------------------
------------------------5--5----1---3--------------------------------------
                                                    Spotkałem narzeczoną



-1--1--1--1--1---3--3---5--5----1---3--------------------------------------
-1--1--1--1--1---3--3---5--5----1---3--------------------------------------
-2--2--2--2--2---4--4---5--5----2---4--------------------------------------
-3--3--3--3--3---5--5---7--7----3---5--------------------------------------
-3--3--3--3--3---5--5---7--7----3---5--------------------------------------
------------------------5--5----1---3--------------------------------------
                                                   Taką ze szkolnych lat


Wstęp:

a  G  C  F
a  G  C  F


Zwrotka:

  F          a  e  F        G
Stała pod ścianą  sącząc kakao...    itd.


Refren:

a  G  C  F
a  G  C  F


Przejście:

a  G  C  F


Zwrotka, refren, zwrotka, refren...


Przejście:

F F F F G G a a  F G
                      Spotkałem narzeczoną...
F F F F G G a a  F G
                      Taką ze...
F F F F G G a a  F G
                      Próbowaliśmy mocno...
F F F F G G a a  F G
                      By taniec naszych...


Solo, reren, zakończenie tak jak wstęp, tyle że wolniej...
Dodał: wojtek_n, 2018-02-18 18:01
Opracowania video z komentarzy

Dodaj komentarz ...i/lub link do filmiku video

Zaloguj się do serwisu
Ostatnie komentarze
1.
grubcio009
2013-03-06 20:10
żle refren
2.
Adrian
2007-09-25 08:56
Aj tam odrazu inną łapke. Może po prostu fuck y** pokazuje innym palcem :P
3.
Chochel
2006-11-17 11:59
chyba sie kolego pomyliles z tymi paluszkami albo masz troszke inna lapke niz ja Pozdrawiam
4.
wes14
2006-09-03 11:02
tam gdzie masz 1 próg to na całej szerokości gryfu kładziesz wskazujący palec, w miejscu 2 progu ten zaraz obok wskazującego (ale nie kciuk :) a tam gdzie dwie 3 to mały palec i ten którym się pokazuje Fuc* You :)
5.
Thuskafeczka
2006-08-28 16:08
--1-- --1-- --2-- --3-- --3-- Jestem początkująca i nie mam zielonego pojęcia jak to chwycić. Byłabym bardzo "dźwięczna" ;) jak by mi to ktoś mógł wytłumaczyć :)
6.
Thuskafeczka
2006-08-28 16:06
--1-- --1-- --2-- --3-- --3-- Jestem początkująca i nie mam zielonego pojęcia jak to chwycić. Byłabym bardzo "dźwięczna" ;) jak by mi to ktoś mógł wytłumaczyć :)
7.
michicybo
2005-07-07 12:55
oj ok niech ci bedzie, sorki, ale wiesz... smiesznie to zabzmiało, bo ja pisze G/H i jak ci tłumacze co to jest to ty pytasz mnie o to jak wygląda ten akord takim dziwnym tonem... :] musze wiedziec chyba, co dodaje na stronke ;P ganz logisch ;) a jesli jest G/H to chyba wiadomo, o co biega i jak to sie gra... no nie??? ;P ;)
8.
denu
2005-07-07 12:19
wyluzuj kolego michicybo i zastanów się jakim sposobem miałem wywnioskować to co teraz napisałeś z Twojego wczesniejszego komentarza: "refren czasem leci takimi akordami: a G/H C F a G C F itd." a rzucając bluzgami sam wystawiłeś o sobie najlepszą opinię i na ten temat nie muszę wiele dodawać. pozdrawiam wszystkich kulturalnych ludzi.
9.
michicybo
2005-07-06 21:10
facet k****... albo masz mnie za idiote, który nie wie, co pisze, albo (bez obrazy) jestes mało inteligentny... G/H "zespołowo" wygląda tak ze gitara gra powiedzmy akord bądź riff G a BASS gra dźwięk H... na klawiszach akord G i lewa ręka gra H oktawą lub jednym dźwiękiem... Jesli jest jakikolwiek akord i jest on w zapisie "łamany" (np. G/H) i jest to /H tzn., że funkcje bassowe grają teże dźwięk... Proste chyba nie??? ;P
10.
denu
2005-07-06 18:24
no to jak wygląda G/H zespołowo bądź na klawiszach? :>
Wszelkie materiały i wypowiedzi zamieszczone na www.chords.pl są własnością ich autorów.