Zacznij systematycznie uczyć się grać na gitarze razem ze stroną Moja nauka - będziesz miał/miała do niej dostęp po zalogowaniu się w serwisie

Wciąż bardziej obcy (bass tab) - Lady Pank

Opracował -a: Paweł B.,
Redaktor: Tomek Pietrzkowski,
Pochodzi z: http://www.chords.pl
Data publikacji: 2009-04-18 12:11, Poprawiono 2009-04-18 12:12
 
Moja nauka


Ups, problem :-/
Zaloguj się Mój śpiewnik
zwr.


E||----------------------|----------------------|-------|||
B||----------------------|----------------------|-------|||
G||----------------------|----------------------|-------|||
D||----------------------|----------------------|-------|||
A||-------5----4----2----|--2-------------------|-------|||
E||--2-------------------|-------2----3----2----|--5----|||



ref:
E||----------------------|----------------------|------------|
B||----------------------|----------------------|------------|
G||----------------------|----------------------|------------|
D||----------------------|----------------------|------------|
A||------------2----5----|-----------------5----|--4---------|
E||--2----5--------------|--5----2----3---------|-------5----|

po wsłuchaniu się w oryginał myślę, że nikt nie będzie miał problemu z 
dopasowaniem.

Dodaj komentarz ...i/lub link do filmiku video

Zaloguj się do serwisu
Wszelkie materiały i wypowiedzi zamieszczone na www.chords.pl są własnością ich autorów.