Zacznij systematycznie uczyć się grać na gitarze razem ze stroną Moja nauka - będziesz miał/miała do niej dostęp po zalogowaniu się w serwisie

Znowu pada deszcz (solo) - Lady Pank

Opracował -a: smolarek30,
Redaktor: Tomek Pietrzkowski,
Pochodzi z: http://www.chords.pl
Data publikacji: 2008-12-19 00:36
 
Moja nauka


Ups, problem :-/
Zaloguj się Mój śpiewnik
Solo:

E------------------------8-|--------------------------
H----6-5-6---6--6-5-6------|----6-5-6--6---6-5-6-3----
G--5-------5--5-------5----|--5------5---5---------5--
D--------------------------|--------------------------
A--------------------------|--------------------------
E--------------------------|--------------------------

E-----------------------8--|--8-10--------------------------------
H----6-5-6---6---6-5-6-----|-------8--8-10------------------------
G--5-------5---5-------5---|---------------7--7-9---------------7-
D--------------------------|----------------------5--5-7-3-2--5---
A--------------------------|--------------------------------------
E--------------------------|--------------------------------------


I dalej:

E------------------------|------------------------
H--------------------6---|----------------6-5-6---
G--7-7-5-------5---5---7-|--7-7-5-------5---------
D--------8-7-8---7-------|--------8-7-8-----------
A------------------------|------------------------     Całość gramy dwa razy
E------------------------|------------------------

E------------------------|------------------------
H--------------------6---|------------------------
G--7-7-5-------5---5---7-|--7-7-5-------5/6-------
D--------8-7-8---7-------|--------8-7-8-----------
A------------------------|------------------------
E------------------------|------------------------

                         Z tym że ten ostatni fragment gramy tak:

                         -------------------------
                         --7-7-5---5--7-7---------
                         --------8----------------
                         -------------------------
                         -------------------------
                         -------------------------


Miłego grania!:-)))
Dodał: Bartek Pawłowski, 2016-04-19 07:25
Opracowania video z komentarzy

Dodaj komentarz ...i/lub link do filmiku video

Zaloguj się do serwisu
Ostatnie komentarze
1.
smolarek30
2009-03-07 21:37
cała przyjemność po mojej stronie...:-)
Wszelkie materiały i wypowiedzi zamieszczone na www.chords.pl są własnością ich autorów.