Zacznij systematycznie uczyć się grać na gitarze razem ze stroną Moja nauka - będziesz miał/miała do niej dostęp po zalogowaniu się w serwisie

Heroina - Lady Pank

Opracował -a: michicybo,
Pochodzi z: http://www.chords.pl
Data publikacji: 2004-10-25 21:29
 
Moja nauka


Ups, problem :-/
Zaloguj się Mój śpiewnik
Gtr I
4x
||---------------------------------||-||-----------0--------------||----|
||o---------3-----2-----0---------o||-||o---------0--------------o||----|
||----4-3-----2-----2------1---1---||-||------2-------------------||----|
||--4-----4-----4-----2------2-----||-||----4-----------------4---||----|
||o-------------------------------o||-||o-4-------------2----2---o||----|
||---------------------------------||-||-----------------0--------||----|



||-------------------------------------------------------------------||--|
||o-----------------------------------------------------------------o||--|
||-------------------------------------------------------------------||--|
||--7-7-7-7-7-7-7-7-7-7-7-7-7-7-7-7-3-3-3-3-3-3-3-3-3-3-3-3-3-3-5-5--||--|
||o-5-5-5-5-5-5-5-5-5-5-5-5-5-5-5-5-1-1-1-1-1-1-1-1-1-1-1-1-1-1-3-3-o||--|
||-------------------------------------------------------------------||--|


4x
||-----------------------------------||----|
||o---------------------------------o||----|
||-----------------------------------||----|
||--4-4-4-7-7-7-7-7------------------||----|
||o-2-2-2-5-5-5-5-5-5-5-5-7-7-7-7-7-o||----|
||------------------3-3-3-5-5-5-5-5--||----|



Zwrotka:

     fis          A  E H
Urodziłem się na nowo...       4x potem wstep a potem znów 4 x


Przejście:

d                       B
Unoszę się, przenoszę się

W ramiona twe opadam ..             2x


Refren:

    H   D     G  A
Ref: Hero, heroina... x4

Dodaj komentarz ...i/lub link do filmiku video

Zaloguj się do serwisu
Wszelkie materiały i wypowiedzi zamieszczone na www.chords.pl są własnością ich autorów.