Zacznij systematycznie uczyć się grać na gitarze razem ze stroną Moja nauka - będziesz miał/miała do niej dostęp po zalogowaniu się w serwisie

Tańcz głupia, tańcz - Lady Pank

Opracował -a: michicybo,
Pochodzi z: http://gitara.org/
Data publikacji: 2004-09-19 20:00
 
Moja nauka


Ups, problem :-/
Zaloguj się Mój śpiewnik


Wstęp i zwrotka:
E||--------------------------|--------------------------|
H||--------------------------|--------------------------|
G||--------------------------|--------------------------|
D||--------------------------|--------------------------| x3 (zwrotka x7)
A||--9--9--9--7--5--5--5--5--|--7--7--7--7--7--7--5--5--|
E||--7--7--7--5--3--3--3--3--|--5--5--5--5--5--5--3--3--|

Za ostatnim razem razem:
E||--------------------------|-------------------||
H||--------------------------|-------------------||
G||--------------------------|-------------------||
D||--------------------------|-------------------||
A||--9--9--9--7--5--5--5--5--|--7----------------||
E||--7--7--7--5--3--3--3--3--|--5----------------||

Druga gitara (wstęp):
E||--------0--0-----------|------0---------0-----|--------|
H||--------------0-----3--|---------0------------|--------|
G||-----------------2-----|-------------------2--|--------|
D||-----------------------|----------------------|--------|
A||-----------------------|----------------------|--------|
E||-----------------------|----------------------|--------|



E||-------|-----------------------|------------||
H||-------|--------7--------------|------------||
G||-------|-----------9--7--------|------------||
D||-------|-----------------9--7--|--9---------||
A||-------|-----------------------|------------||
E||-------|-----------------------|------------||

Ta sama gitara podczas zwrotki:
E||------------------------|------------------------|------------------------|
H||------------------------|---------7--------------|------------------------|
G||----------6--7--9----6--|------------9--7--------|----------6--7--9-------|
D||--9----9----------------|----7-------------9--7--|--9----9-------------7--|
A||------------------------|------------------------|------------------------|
E||------------------------|------------------------|------------------------|

E||-----------------------||
H||--------7--------------||
G||-----------9--7--------||  te 4 takty gramy 3 razy
D||-----------------9--7--||
A||-----------------------||
E||-----------------------||

Za czwartym razem zmienia się tylko ostatni takt:
E||----0----------------||
H||-------0-------------||
G||----------2----------||
D||---------------------||
A||---------------------||
E||---------------------||

Refren:
E||-----------------------|-----------------------|-----------------------|
H||-----------------------|-----------------------|-----------------------|
G||-----------------------|-----------------------|-----------------------|
D||--7----7---------------|-----------------------|--7----7---------------|
A||--5----5--7------7--7--|--9----9--5------5--5--|--5----5--7------7--7--|
E||----------5------5--5--|--7----7--3------3--3--|----------5------5--5--|



E||-------------------------|-----------------------|-----------------------|
H||-------------------------|-----------------------|-----------------------|
G||-------------7--6--------|-----------------------|-----------------------|
D||----------7--------9--7--|--7----7---------------|-----------------------|
A||--9----9-----------------|--5----5--7------7--7--|--9----9--5------5--5--|
E||--7----------------------|----------5------5--5--|--7----7--3------3--3--|



E||-----------------------|------------------||
H||-----------------------|------------------||
G||-----------------------|------------------||
D||--7----7---------------|------------------||
A||--5----5--7------7--7--|--9---------------||
E||----------5------5--5--|--7---------------||

Zagrywka po refrenie:
   to jest ostatni takt ref.
                ||
                \/
E||--------------------|------------------------------|
H||--------------------|------------------------------|
G||--------------------|-------------11----9--11------|
D||--------------------|------9--12---------------11--|
A||--9--------------9--|--10--------------------------|
E||--7-----------------|------------------------------|



E||---------------------|------------------------------|-------------------|
H||---------------------|------------------------------|-------------------|
G||---------------------|-------------11----9--11------|--9-----9--9-------|
D||--12--11-------------|------9--12---------------11--|-------------------|
A||----------12------9--|--10--------------------------|----------------9--|
E||---------------------|------------------------------|-------------------|



E||------------------------------|-------------------------|
H||------------------------------|-------------------------|
G||-------------11----9--11------|-------------------------|
D||------9--12---------------11--|----12--11---------------|
A||--10--------------------------|------------12--------9--|
E||------------------------------|-------------------------|



E||------------------------------|------------------||
H||------------------------------|------------------||
G||-------------11----9--11------|--9---------------||
D||------9--12---------------11--|------------------||
A||--10--------------------------|------------------||
E||------------------------------|------------------||

Końcówka grana na distortion:
E||--------------------------|--------------------------|
H||--------------------------|--------------------------|
G||--------------------------|--------------------------|
D||--4--4--4--4--4--4--4--4--|--4--4--4-----------------|
A||--2--2--2--2--2--2--2--2--|--2--2--2--4--5--4--2-----|
E||--------------------------|-----------------------5--|



E||--------------------------|--------------------------||
H||--------------------------|--------------------------||
G||--------------------------|--------------------------||
D||--------------------------|--------------------------|| x ileś tam razy
A||--5--5--5--5--5--5--5--5--|--4--4--4--4--7--7--7--7--||
E||--3--3--3--3--3--3--3--3--|--2--2--2--2--5--5--5--5--||

Druga gitara:
E||---------------------|---------------------|----------------------|
H||----3------3--3------|----3------3--3------|--3----3------3----3--|
G||----4------4--4------|----4------4--4------|--4----4------4-------|
D||----4------4--4------|----4------4--4------|--5----5------5-------|
A||---------------------|---------------------|----------------------|
E||---------------------|---------------------|----------------------|



E||---------------------||
H||---------3-----------||
G||------------2--------||
D||--4------------------||
A||---------------------||
E||---------------------||



Zwrotka:

h  G  A


Refren:

D  A
h  G
D  A  h
D  A
h  G
D  A  h
Dodał: WojtekGuitar, 2014-10-20 14:23
Opracowania video z komentarzy

Dodaj komentarz ...i/lub link do filmiku video

Zaloguj się do serwisu
Ostatnie komentarze
1.
mark76
2014-01-31 10:25
może pokusi się ktoś o solówkę...?
2.
klzk
2011-10-07 17:49
Jak dla mnie, opracowanie bardzo dobre. Ale oczywiście chętnie spojrzę na opracowania krytykujących tę tabulaturę. Tylko, że na razie jakoś nie widzę innych propozycji. Dzięki dla autora opracowania
3.
rodzina123
2010-02-07 13:25
Przeciętny gitarzysta powinien też wiedzieć , że POZA i NIEDOKŁADNY - pisze się łącznie... Pozdrawiam.
4.
mike092
2010-02-07 12:08
wszystko ok , po za jednym .. masz nie dokładną tą zagrywkę po refrenie , ale każdy przeciętny gitarzysta już sobie sam ją ze słuchu ułoży .. generalnie spoko , pozdro ;)
5.
rodzina123
2007-12-18 14:28
Te dwudxwięki - powerchords - graj uderzając struny tylko trzymane ( te z cyferkami ) Uderzaj kostka z góry , staraj się lekko stłumić dźwięki - kładąc delikatnie kant prawej dłoni w miejscu - gdzie struny " wychodzą " z mostka . Pozdro.
6.
qbadrag
2007-12-18 12:19
mam takie pytanie czy to się gra pociągając wszystkie struny czy tylko te które się trzyma w danym momencie?? please pomóżcie
7.
rodzina123
2007-07-31 20:37
To właściwie jest ten sam układ akordów . Tylko w innej tonacji.Pozdrawiam.
8.
divine_hell
2007-07-31 18:54
hmmm....ja znam inne chwyty do tej piosenki...: zwrotka: a F G refren: C G a F C G a C G a F C G a
9.
kamilRTS
2007-06-19 11:26
idealne opracowanie jak dla mnie
10.
rodzina123
2006-01-08 13:37
bardzo ładna taba - zgadzam się z nią całkowicie ...
Wszelkie materiały i wypowiedzi zamieszczone na www.chords.pl są własnością ich autorów.